free web hosting | website hosting | Business Hosting Services | Free Website Submission | shopping cart | php hosting

Red Hot Chili Peppers, "Under The Bridge"

Intro:

E-|------------------------------------|----------------------------------|
B-|----------------1-------------------|----------------------------------|
G-|--------0----------0----------------|---------------1------------------|
D-|-----2------2-----------------------|---------2--------2--2--0---------|
A-|--3---------------------2-0---------|-----2------2---------------3--0--|
E-|-------------------------------3--2-|--0-------------------------------|

E-|---------------------------------------|---------------------------------|
B-|---------------------1h3p1-------------|---------------------------------|
G-|-------------0--------------0----------|---------------1-----------------|
D-|-------2------------------------2/4--4-|---------2--------2--2--0--------|
A-|-2/3------3-----3---------------3/5--5-|-----2------2---------------3--0-|
E-|---------------------------------------|--0------------------------------|

E-|--------------------------------|--------------------------------|
B-|------------------1-------------|--------------------------------|
G-|------------0--------0----------|--------------1-----------------|
D-|------2-------2-----------------|--------2--------2--2--0--------|
A-|-2/3-----3--------------2-0-----|----2------2---------------3--0-|
E-|----------------------------3-2-|-0------------------------------|

E-|---------------------------------------|---------------------------------|
B-|---------------------1h3p1-------------|---------------------------------|
G-|-------------0--------------0----------|-------------1---------1---------|
D-|-------2--------2---------------2/4--4-|-------2---------2--------2------|
A-|-2/3------3---------------------3/5--5-|----2-----2--------2---------2/5-|
E-|---------------------------------------|--0------------------------------|

Bit Before Verse:

E-|-----------------------------------|-----------------|---------------------|
B-|---9----7----------9---------7---5-|--9---7----9---5-|--9---7----9---7---5-|
G-|---9----8----------9---------8---6-|--9---8----9---6-|--9---8----9---8---6-|
D-|---9----9----9/11------11----9---7-|--9---9---11---7-|--9---9---11---9---7-|
A-|---7---------9/11------11----------|--7-------11-----|--7-------11---------|
E-|-----------------------------------|-----------------|---------------------|

E-|-----------------------------|
B-|-9---7----9---5----------9---|
G-|-9---8----9---6----------8---|
D-|-9---9---11---7----------9---|
A-|-7-------11--------------7---|
E-|-----------------------------|

Verses:

E-|---------------------------------------------------5h7p5-----|
B-|--9--9---7------------------------9--------7---5----------5--|
G-|--9--9---8------8h9p8-------------9--------8---6-------------|
D-|--9--9---9---9--------9---9/11--------11---9---7-------------|
A-|--7--7--------------------9/11--------11---------------------|
E-|-------------------------------------------------------------|
Improvise With The Hammer Ons And Pull Offs

E-|------------------------------------------------5---|
B-|-9--9---7------------------------9--------5-----5---|
G-|-9--9---8------8h9p8-------------9--------6-----6---|
D-|-9--9---9---9--------9---9/11--------11---7---------|
A-|-7--7--------------------9/11--------11-------------|
E-|----------------------------------------------------|

Chorus:

E-|-------------------------------------------------------|
B-|--10-x-x---9-9-9---9---x-x--16-16-16-16-16--x--14--14--|
G-|--11-x-x---9-9-9---9---x-x--16-16-16-16-16--x--14--14--|
D-|--11-x-x---9-9-9---9---x-x--16-16-16-16-16--x--16--16--|
A-|-----x-x---7-7-7---7---x-x--14-14-14-14-14--x--16--16--|
E-|-------------------------------------------------------|

After the 1st Chorus just go straight to "Verses".

After 2nd Verse:

E-|--------------------------------------------------|
B-|---5--5--5--5----5-5-5-5-5----3-3-3-3----1-1-1-1--|
G-|---6--6--6--6----5-5-5-5-5----4-4-4-4----2-2-2-2--|
D-|---7--7--7--7----5-5-5-5-5----5-5-5-5----3-3-3-3--|
A-|--------------------------------------------------|
E-|--------------------------------------------------|
x 4

E-|--12-12-12-12-12-12-12-12-12--|-10-10-10-10-10-10--|-------------------------|
B-|--10-10-10-10-10-10-10-10-10--|--9--9--9--9--9--9--|---12-12-12-12-12-12-12--|
G-|--10-10-10-10-10-10-10-10-10--|--9--9--9--9--9--9--|---12-12-12-12-12-12-12--|
D-|--10-10-10-10-10-10-10-10-10--|--9--9--9--9--9--9--|---12-12-12-12-12-12-12--|
A-|------------------------------|--------------------|---10-10-10-10-10-10-10--|
E-|------------------------------|--------------------|-------------------------|

Outro:

E-|--------------------------------------------------------0---|
B-|-5--5--5--5----5-5-5-5-5----3-3-3-3----1-1-1-1---0h1p0----1-|
G-|-6--6--6--6----5-5-5-5-5----4-4-4-4----2-2-2-2--------------|
D-|-7--7--7--7----5-5-5-5-5----5-5-5-5----3-3-3-3--------------|
A-|------------------------------------------------------------|
E-|------------------------------------------------------------|

E-|--------------------------------------------------1h3p1------|
B-|-5--5--5--5----5-5-5-5-5----3-3-3-3----1-1-1-1-----------1---|
G-|-6--6--6--6----5-5-5-5-5----4-4-4-4----2-2-2-2---------------|
D-|-7--7--7--7----5-5-5-5-5----5-5-5-5----3-3-3-3---------------|
A-|-------------------------------------------------------------|
E-|-------------------------------------------------------------|
x 4

Well, There it is. One Of The Peppers Greatest Songs.

Tabbed by Alexander Kinghorn.

Please e-mail me for mistakes, comments, anything.

E-mail: generic@northnet.com.au